ISO-10303-21;
HEADER;
FILE_DESCRIPTION(('Creo Elements/Direct Modeling STEP Export'),'2;1');
FILE_NAME(
'C:/Users/TECCAD~1/AppData/Local/Temp/0ln7uvk4pr4sm2r3496/0ln7uvk4pr4sm2
s3496','2019-03-22T 9:50:48',(''),(''),
'PTC Creo Elements/Direct Modeling STEP processor for AP214 (Solid Model
)',
'PTC Creo Elements/Direct Modeling 19.0E  27-Jun-2016 (C) Parametric Tec
hnology GmbH','');
FILE_SCHEMA(('AUTOMOTIVE_DESIGN { 1 0 10303 214 1 1 1 1 }'));
ENDSEC;
DATA;
#10=CARTESIAN_POINT('',(51.312048,46.825278,75.4284126040313));
#20=DIRECTION('',(0.,0.,1.));
#30=DIRECTION('',(0.,-1.,0.));
#40=AXIS2_PLACEMENT_3D('',#10,#20,#30);
#50=CYLINDRICAL_SURFACE('',#40,3.00000000000006);
#60=CARTESIAN_POINT('',(51.312048,43.8252779999999,75.4284126040313));
#70=DIRECTION('',(0.,0.,1.));
#80=VECTOR('',#70,1.);
#90=LINE('',#60,#80);
#100=CARTESIAN_POINT('',(51.312048,43.8252779999999,74.4284127386261));
#110=VERTEX_POINT('',#100);
#120=CARTESIAN_POINT('',(51.312048,43.8252779999999,76.1397374694365));
#130=VERTEX_POINT('',#120);
#140=EDGE_CURVE('',#110,#130,#90,.T.);
#150=ORIENTED_EDGE('',*,*,#140,.F.);
#160=CARTESIAN_POINT('',(51.312048,46.825278,76.1397374694365));
#170=DIRECTION('',(0.,0.,1.));
#180=DIRECTION('',(0.,1.,0.));
#190=AXIS2_PLACEMENT_3D('',#160,#170,#180);
#200=CIRCLE('',#190,3.00000000000006);
#210=CARTESIAN_POINT('',(51.312048,49.8252780000001,76.1397374694365));
#220=VERTEX_POINT('',#210);
#230=EDGE_CURVE('',#130,#220,#200,.T.);
#240=ORIENTED_EDGE('',*,*,#230,.F.);
#250=CARTESIAN_POINT('',(51.312048,49.8252780000001,75.4284126040313));
#260=DIRECTION('',(0.,0.,1.));
#270=VECTOR('',#260,1.);
#280=LINE('',#250,#270);
#290=CARTESIAN_POINT('',(51.312048,49.8252780000001,74.4284127386261));
#300=VERTEX_POINT('',#290);
#310=EDGE_CURVE('',#300,#220,#280,.T.);
#320=ORIENTED_EDGE('',*,*,#310,.T.);
#330=CARTESIAN_POINT('',(51.312048,46.825278,74.4284127386261));
#340=DIRECTION('',(0.,0.,1.));
#350=DIRECTION('',(0.,1.,0.));
#360=AXIS2_PLACEMENT_3D('',#330,#340,#350);
#370=CIRCLE('',#360,3.00000000000006);
#380=EDGE_CURVE('',#110,#300,#370,.T.);
#390=ORIENTED_EDGE('',*,*,#380,.T.);
#400=EDGE_LOOP('',(#390,#320,#240,#150));
#410=FACE_OUTER_BOUND('',#400,.T.);
#420=ADVANCED_FACE('',(#410),#50,.T.);
#430=CARTESIAN_POINT('',(51.312048,46.825278,74.4284127386261));
#440=DIRECTION('',(0.,0.,1.));
#450=DIRECTION('',(0.,-1.,0.));
#460=AXIS2_PLACEMENT_3D('',#430,#440,#450);
#470=CONICAL_SURFACE('',#460,3.00000000000006,1.04719755119669);
#480=CARTESIAN_POINT('',(51.312048,49.8252780000001,74.4284127386261));
#490=DIRECTION('',(0.,0.866025403784483,0.499999999999923));
#500=VECTOR('',#490,3.46410161513764);
#510=LINE('',#480,#500);
#520=CARTESIAN_POINT('',(51.312048,49.325278,74.1397376040313));
#530=VERTEX_POINT('',#520);
#540=EDGE_CURVE('',#530,#300,#510,.T.);
#550=ORIENTED_EDGE('',*,*,#540,.F.);
#560=EDGE_CURVE('',#300,#110,#370,.T.);
#570=ORIENTED_EDGE('',*,*,#560,.F.);
#580=CARTESIAN_POINT('',(51.312048,43.8252779999999,74.4284127386261));
#590=DIRECTION('',(0.,-0.866025403784483,0.499999999999923));
#600=VECTOR('',#590,3.46410161513764);
#610=LINE('',#580,#600);
#620=CARTESIAN_POINT('',(51.312048,44.325278,74.1397376040313));
#630=VERTEX_POINT('',#620);
#640=EDGE_CURVE('',#630,#110,#610,.T.);
#650=ORIENTED_EDGE('',*,*,#640,.T.);
#660=CARTESIAN_POINT('',(51.312048,46.825278,74.1397376040313));
#670=DIRECTION('',(0.,0.,1.));
#680=DIRECTION('',(0.,-1.,0.));
#690=AXIS2_PLACEMENT_3D('',#660,#670,#680);
#700=CIRCLE('',#690,2.5);
#710=EDGE_CURVE('',#530,#630,#700,.T.);
#720=ORIENTED_EDGE('',*,*,#710,.T.);
#730=EDGE_LOOP('',(#720,#650,#570,#550));
#740=FACE_OUTER_BOUND('',#730,.T.);
#750=ADVANCED_FACE('',(#740),#470,.T.);
#760=CARTESIAN_POINT('',(51.312048,46.825278,71.1397374694365));
#770=DIRECTION('',(0.,0.,1.));
#780=DIRECTION('',(0.,-1.,0.));
#790=AXIS2_PLACEMENT_3D('',#760,#770,#780);
#800=CYLINDRICAL_SURFACE('',#790,2.5);
#810=CARTESIAN_POINT('',(51.312048,49.325278,71.1397374694365));
#820=DIRECTION('',(0.,0.,1.));
#830=VECTOR('',#820,1.);
#840=LINE('',#810,#830);
#850=CARTESIAN_POINT('',(51.312048,49.325278,68.1397374694366));
#860=VERTEX_POINT('',#850);
#870=EDGE_CURVE('',#860,#530,#840,.T.);
#880=ORIENTED_EDGE('',*,*,#870,.F.);
#890=ORIENTED_EDGE('',*,*,#710,.F.);
#900=CARTESIAN_POINT('',(51.312048,44.325278,71.1397374694365));
#910=DIRECTION('',(0.,0.,1.));
#920=VECTOR('',#910,1.);
#930=LINE('',#900,#920);
#940=CARTESIAN_POINT('',(51.312048,44.325278,68.1397374694366));
#950=VERTEX_POINT('',#940);
#960=EDGE_CURVE('',#950,#630,#930,.T.);
#970=ORIENTED_EDGE('',*,*,#960,.T.);
#980=CARTESIAN_POINT('',(51.312048,46.825278,68.1397374694366));
#990=DIRECTION('',(0.,0.,-1.));
#1000=DIRECTION('',(0.,1.,0.));
#1010=AXIS2_PLACEMENT_3D('',#980,#990,#1000);
#1020=CIRCLE('',#1010,2.5);
#1030=EDGE_CURVE('',#950,#860,#1020,.T.);
#1040=ORIENTED_EDGE('',*,*,#1030,.F.);
#1050=EDGE_LOOP('',(#1040,#970,#890,#880));
#1060=FACE_OUTER_BOUND('',#1050,.T.);
#1070=ADVANCED_FACE('',(#1060),#800,.T.);
#1080=CARTESIAN_POINT('',(51.312048,46.825278,67.6397374694365));
#1090=DIRECTION('',(0.,0.,-1.));
#1100=DIRECTION('',(0.,1.,0.));
#1110=AXIS2_PLACEMENT_3D('',#1080,#1090,#1100);
#1120=CONICAL_SURFACE('',#1110,3.00000000000006,0.785398163397448);
#1130=CARTESIAN_POINT('',(51.312048,43.8252779999999,67.6397374694365));
#1140=DIRECTION('',(0.,-0.707106781186548,-0.707106781186548));
#1150=VECTOR('',#1140,4.24264068711937);
#1160=LINE('',#1130,#1150);
#1170=CARTESIAN_POINT('',(51.312048,43.8252779999999,67.6397374694365));
#1180=VERTEX_POINT('',#1170);
#1190=EDGE_CURVE('',#950,#1180,#1160,.T.);
#1200=ORIENTED_EDGE('',*,*,#1190,.T.);
#1210=EDGE_CURVE('',#860,#950,#1020,.T.);
#1220=ORIENTED_EDGE('',*,*,#1210,.T.);
#1230=CARTESIAN_POINT('',(51.312048,49.8252780000001,67.6397374694365));
#1240=DIRECTION('',(0.,0.707106781186548,-0.707106781186548));
#1250=VECTOR('',#1240,4.24264068711937);
#1260=LINE('',#1230,#1250);
#1270=CARTESIAN_POINT('',(51.312048,49.8252780000001,67.6397374694365));
#1280=VERTEX_POINT('',#1270);
#1290=EDGE_CURVE('',#860,#1280,#1260,.T.);
#1300=ORIENTED_EDGE('',*,*,#1290,.F.);
#1310=CARTESIAN_POINT('',(51.312048,46.825278,67.6397374694365));
#1320=DIRECTION('',(0.,0.,1.));
#1330=DIRECTION('',(0.,1.,0.));
#1340=AXIS2_PLACEMENT_3D('',#1310,#1320,#1330);
#1350=CIRCLE('',#1340,3.00000000000006);
#1360=EDGE_CURVE('',#1180,#1280,#1350,.T.);
#1370=ORIENTED_EDGE('',*,*,#1360,.T.);
#1380=EDGE_LOOP('',(#1370,#1300,#1220,#1200));
#1390=FACE_OUTER_BOUND('',#1380,.T.);
#1400=ADVANCED_FACE('',(#1390),#1120,.T.);
#1410=CARTESIAN_POINT('',(51.312048,46.825278,66.4397374694366));
#1420=DIRECTION('',(0.,0.,1.));
#1430=DIRECTION('',(0.,-1.,0.));
#1440=AXIS2_PLACEMENT_3D('',#1410,#1420,#1430);
#1450=CYLINDRICAL_SURFACE('',#1440,3.00000000000006);
#1460=CARTESIAN_POINT('',(51.312048,43.8252779999999,66.4397374694366));
#1470=DIRECTION('',(0.,0.,1.));
#1480=VECTOR('',#1470,1.);
#1490=LINE('',#1460,#1480);
#1500=CARTESIAN_POINT('',(51.312048,43.8252779999999,65.7397374694365));
#1510=VERTEX_POINT('',#1500);
#1520=EDGE_CURVE('',#1510,#1180,#1490,.T.);
#1530=ORIENTED_EDGE('',*,*,#1520,.F.);
#1540=ORIENTED_EDGE('',*,*,#1360,.F.);
#1550=CARTESIAN_POINT('',(51.312048,49.8252780000001,66.4397374694366));
#1560=DIRECTION('',(0.,0.,1.));
#1570=VECTOR('',#1560,1.);
#1580=LINE('',#1550,#1570);
#1590=CARTESIAN_POINT('',(51.312048,49.8252780000001,65.7397374694365));
#1600=VERTEX_POINT('',#1590);
#1610=EDGE_CURVE('',#1600,#1280,#1580,.T.);
#1620=ORIENTED_EDGE('',*,*,#1610,.T.);
#1630=CARTESIAN_POINT('',(51.312048,46.825278,65.7397374694365));
#1640=DIRECTION('',(0.,0.,1.));
#1650=DIRECTION('',(0.,1.,0.));
#1660=AXIS2_PLACEMENT_3D('',#1630,#1640,#1650);
#1670=CIRCLE('',#1660,3.00000000000006);
#1680=EDGE_CURVE('',#1510,#1600,#1670,.T.);
#1690=ORIENTED_EDGE('',*,*,#1680,.T.);
#1700=EDGE_LOOP('',(#1690,#1620,#1540,#1530));
#1710=FACE_OUTER_BOUND('',#1700,.T.);
#1720=ADVANCED_FACE('',(#1710),#1450,.T.);
#1730=CARTESIAN_POINT('',(51.312048,46.825278,65.7397374694365));
#1740=DIRECTION('',(0.,0.,1.));
#1750=DIRECTION('',(0.,-1.,0.));
#1760=AXIS2_PLACEMENT_3D('',#1730,#1740,#1750);
#1770=CONICAL_SURFACE('',#1760,3.00000000000006,0.785398163397457);
#1780=CARTESIAN_POINT('',(51.312048,49.8252780000001,65.7397374694365));
#1790=DIRECTION('',(0.,0.707106781186553,0.707106781186542));
#1800=VECTOR('',#1790,4.24264068711933);
#1810=LINE('',#1780,#1800);
#1820=CARTESIAN_POINT('',(51.312048,48.8252780000001,64.7397374694366));
#1830=VERTEX_POINT('',#1820);
#1840=EDGE_CURVE('',#1830,#1600,#1810,.T.);
#1850=ORIENTED_EDGE('',*,*,#1840,.F.);
#1860=EDGE_CURVE('',#1600,#1510,#1670,.T.);
#1870=ORIENTED_EDGE('',*,*,#1860,.F.);
#1880=CARTESIAN_POINT('',(51.312048,43.8252779999999,65.7397374694365));
#1890=DIRECTION('',(0.,-0.707106781186553,0.707106781186542));
#1900=VECTOR('',#1890,4.24264068711933);
#1910=LINE('',#1880,#1900);
#1920=CARTESIAN_POINT('',(51.312048,44.8252779999999,64.7397374694366));
#1930=VERTEX_POINT('',#1920);
#1940=EDGE_CURVE('',#1930,#1510,#1910,.T.);
#1950=ORIENTED_EDGE('',*,*,#1940,.T.);
#1960=CARTESIAN_POINT('',(51.312048,46.825278,64.7397374694366));
#1970=DIRECTION('',(0.,0.,1.));
#1980=DIRECTION('',(0.,-1.,0.));
#1990=AXIS2_PLACEMENT_3D('',#1960,#1970,#1980);
#2000=CIRCLE('',#1990,2.00000000000011);
#2010=EDGE_CURVE('',#1830,#1930,#2000,.T.);
#2020=ORIENTED_EDGE('',*,*,#2010,.T.);
#2030=EDGE_LOOP('',(#2020,#1950,#1870,#1850));
#2040=FACE_OUTER_BOUND('',#2030,.T.);
#2050=ADVANCED_FACE('',(#2040),#1770,.T.);
#2060=CARTESIAN_POINT('',(51.312048,46.825278,49.1397374694366));
#2070=DIRECTION('',(0.,0.,-1.));
#2080=DIRECTION('',(-1.,0.,0.));
#2090=AXIS2_PLACEMENT_3D('',#2060,#2070,#2080);
#2100=SPHERICAL_SURFACE('',#2090,2.);
#2110=CARTESIAN_POINT('',(51.312048,46.825278,49.1397374694366));
#2120=DIRECTION('',(0.,1.,0.));
#2130=DIRECTION('',(1.,0.,0.));
#2140=AXIS2_PLACEMENT_3D('',#2110,#2120,#2130);
#2150=CIRCLE('',#2140,2.);
#2160=CARTESIAN_POINT('',(53.312048,46.825278,49.1397374694366));
#2170=VERTEX_POINT('',#2160);
#2180=CARTESIAN_POINT('',(51.312048,46.825278,47.1397374694366));
#2190=VERTEX_POINT('',#2180);
#2200=EDGE_CURVE('',#2170,#2190,#2150,.T.);
#2210=ORIENTED_EDGE('',*,*,#2200,.F.);
#2220=CARTESIAN_POINT('',(49.312048,46.825278,49.1397374694366));
#2230=VERTEX_POINT('',#2220);
#2240=EDGE_CURVE('',#2190,#2230,#2150,.T.);
#2250=ORIENTED_EDGE('',*,*,#2240,.F.);
#2260=CARTESIAN_POINT('',(51.312048,46.825278,49.1397374694366));
#2270=DIRECTION('',(0.,0.,1.));
#2280=DIRECTION('',(0.,-1.,0.));
#2290=AXIS2_PLACEMENT_3D('',#2260,#2270,#2280);
#2300=CIRCLE('',#2290,2.00000000000011);
#2310=CARTESIAN_POINT('',(51.312048,44.8252779999999,49.1397374694366));
#2320=VERTEX_POINT('',#2310);
#2330=EDGE_CURVE('',#2230,#2320,#2300,.T.);
#2340=ORIENTED_EDGE('',*,*,#2330,.F.);
#2350=EDGE_CURVE('',#2320,#2170,#2300,.T.);
#2360=ORIENTED_EDGE('',*,*,#2350,.F.);
#2370=EDGE_LOOP('',(#2360,#2340,#2250,#2210));
#2380=FACE_OUTER_BOUND('',#2370,.T.);
#2390=ADVANCED_FACE('',(#2380),#2100,.T.);
#2400=CARTESIAN_POINT('',(51.312048,46.825278,76.1397374694365));
#2410=DIRECTION('',(0.,0.,1.));
#2420=DIRECTION('',(0.,-1.,0.));
#2430=AXIS2_PLACEMENT_3D('',#2400,#2410,#2420);
#2440=CONICAL_SURFACE('',#2430,2.25000000000005,0.523598775598343);
#2450=CARTESIAN_POINT('',(51.312048,44.5752779999999,76.1397374694365));
#2460=DIRECTION('',(0.,-0.500000000000038,0.866025403784417));
#2470=VECTOR('',#2460,4.49999999999975);
#2480=LINE('',#2450,#2470);
#2490=CARTESIAN_POINT('',(51.312048,45.075278,75.2737120656521));
#2500=VERTEX_POINT('',#2490);
#2510=CARTESIAN_POINT('',(51.312048,44.5752779999999,76.1397374694365));
#2520=VERTEX_POINT('',#2510);
#2530=EDGE_CURVE('',#2500,#2520,#2480,.T.);
#2540=ORIENTED_EDGE('',*,*,#2530,.T.);
#2550=CARTESIAN_POINT('',(51.312048,46.825278,75.2737120656521));
#2560=DIRECTION('',(0.,0.,1.));
#2570=DIRECTION('',(0.,-1.,0.));
#2580=AXIS2_PLACEMENT_3D('',#2550,#2560,#2570);
#2590=CIRCLE('',#2580,1.75);
#2600=CARTESIAN_POINT('',(51.312048,48.575278,75.2737120656521));
#2610=VERTEX_POINT('',#2600);
#2620=EDGE_CURVE('',#2500,#2610,#2590,.T.);
#2630=ORIENTED_EDGE('',*,*,#2620,.F.);
#2640=CARTESIAN_POINT('',(51.312048,49.075278,76.1397374694365));
#2650=DIRECTION('',(0.,0.500000000000038,0.866025403784417));
#2660=VECTOR('',#2650,4.49999999999975);
#2670=LINE('',#2640,#2660);
#2680=CARTESIAN_POINT('',(51.312048,49.075278,76.1397374694365));
#2690=VERTEX_POINT('',#2680);
#2700=EDGE_CURVE('',#2610,#2690,#2670,.T.);
#2710=ORIENTED_EDGE('',*,*,#2700,.F.);
#2720=CARTESIAN_POINT('',(51.312048,46.825278,76.1397374694365));
#2730=DIRECTION('',(0.,0.,1.));
#2740=DIRECTION('',(0.,1.,0.));
#2750=AXIS2_PLACEMENT_3D('',#2720,#2730,#2740);
#2760=CIRCLE('',#2750,2.25000000000005);
#2770=EDGE_CURVE('',#2520,#2690,#2760,.T.);
#2780=ORIENTED_EDGE('',*,*,#2770,.T.);
#2790=EDGE_LOOP('',(#2780,#2710,#2630,#2540));
#2800=FACE_OUTER_BOUND('',#2790,.T.);
#2810=ADVANCED_FACE('',(#2800),#2440,.F.);
#2820=CARTESIAN_POINT('',(51.312048,49.4502780000001,76.1397374694365));
#2830=DIRECTION('',(-0.,0.,1.));
#2840=DIRECTION('',(0.,-1.,0.));
#2850=AXIS2_PLACEMENT_3D('',#2820,#2830,#2840);
#2860=PLANE('',#2850);
#2870=EDGE_CURVE('',#2690,#2520,#2760,.T.);
#2880=ORIENTED_EDGE('',*,*,#2870,.F.);
#2890=ORIENTED_EDGE('',*,*,#2770,.F.);
#2900=EDGE_LOOP('',(#2890,#2880));
#2910=FACE_BOUND('',#2900,.T.);
#2920=EDGE_CURVE('',#220,#130,#200,.T.);
#2930=ORIENTED_EDGE('',*,*,#2920,.T.);
#2940=ORIENTED_EDGE('',*,*,#230,.T.);
#2950=EDGE_LOOP('',(#2940,#2930));
#2960=FACE_OUTER_BOUND('',#2950,.T.);
#2970=ADVANCED_FACE('',(#2910,#2960),#2860,.T.);
#2980=CARTESIAN_POINT('',(51.312048,46.825278,66.5397374694365));
#2990=DIRECTION('',(0.,0.,1.));
#3000=DIRECTION('',(-1.,0.,0.));
#3010=AXIS2_PLACEMENT_3D('',#2980,#2990,#3000);
#3020=PLANE('',#3010);
#3030=CARTESIAN_POINT('',(51.312048,46.825278,66.5397374694365));
#3040=DIRECTION('',(0.,0.,-1.));
#3050=DIRECTION('',(0.,1.,0.));
#3060=AXIS2_PLACEMENT_3D('',#3030,#3040,#3050);
#3070=CIRCLE('',#3060,1.75);
#3080=CARTESIAN_POINT('',(49.562048,46.825278,66.5397374694365));
#3090=VERTEX_POINT('',#3080);
#3100=CARTESIAN_POINT('',(51.312048,48.575278,66.5397374694365));
#3110=VERTEX_POINT('',#3100);
#3120=EDGE_CURVE('',#3090,#3110,#3070,.T.);
#3130=ORIENTED_EDGE('',*,*,#3120,.F.);
#3140=CARTESIAN_POINT('',(51.312048,45.075278,66.5397374694365));
#3150=VERTEX_POINT('',#3140);
#3160=EDGE_CURVE('',#3110,#3150,#3070,.T.);
#3170=ORIENTED_EDGE('',*,*,#3160,.F.);
#3180=EDGE_CURVE('',#3150,#3090,#3070,.T.);
#3190=ORIENTED_EDGE('',*,*,#3180,.F.);
#3200=EDGE_LOOP('',(#3190,#3170,#3130));
#3210=FACE_OUTER_BOUND('',#3200,.T.);
#3220=ADVANCED_FACE('',(#3210),#3020,.T.);
#3230=CARTESIAN_POINT('',(51.312048,46.825278,56.4361840788433));
#3240=DIRECTION('',(0.,0.,1.));
#3250=DIRECTION('',(0.,-1.,0.));
#3260=AXIS2_PLACEMENT_3D('',#3230,#3240,#3250);
#3270=CYLINDRICAL_SURFACE('',#3260,2.00000000000011);
#3280=CARTESIAN_POINT('',(51.312048,44.8252779999999,56.4361840788433));
#3290=DIRECTION('',(0.,0.,1.));
#3300=VECTOR('',#3290,1.);
#3310=LINE('',#3280,#3300);
#3320=CARTESIAN_POINT('',(51.312048,44.8252779999999,53.1397374694365));
#3330=VERTEX_POINT('',#3320);
#3340=EDGE_CURVE('',#2320,#3330,#3310,.T.);
#3350=ORIENTED_EDGE('',*,*,#3340,.F.);
#3360=CARTESIAN_POINT('',(51.312048,46.825278,53.1397374694365));
#3370=DIRECTION('',(0.,0.,1.));
#3380=DIRECTION('',(0.,-1.,0.));
#3390=AXIS2_PLACEMENT_3D('',#3360,#3370,#3380);
#3400=CIRCLE('',#3390,2.00000000000011);
#3410=CARTESIAN_POINT('',(51.312048,48.8252780000001,53.1397374694365));
#3420=VERTEX_POINT('',#3410);
#3430=EDGE_CURVE('',#3330,#3420,#3400,.T.);
#3440=ORIENTED_EDGE('',*,*,#3430,.F.);
#3450=CARTESIAN_POINT('',(51.312048,48.8252780000001,56.4361840788433));
#3460=DIRECTION('',(0.,0.,1.));
#3470=VECTOR('',#3460,1.);
#3480=LINE('',#3450,#3470);
#3490=CARTESIAN_POINT('',(51.312048,48.8252780000001,49.1397374694366));
#3500=VERTEX_POINT('',#3490);
#3510=EDGE_CURVE('',#3500,#3420,#3480,.T.);
#3520=ORIENTED_EDGE('',*,*,#3510,.T.);
#3530=EDGE_CURVE('',#2170,#3500,#2300,.T.);
#3540=ORIENTED_EDGE('',*,*,#3530,.T.);
#3550=ORIENTED_EDGE('',*,*,#2350,.T.);
#3560=EDGE_LOOP('',(#3550,#3540,#3520,#3440,#3350));
#3570=FACE_OUTER_BOUND('',#3560,.T.);
#3580=ADVANCED_FACE('',(#3570),#3270,.T.);
#3590=CARTESIAN_POINT('',(51.312048,46.825278,70.6252665113144));
#3600=DIRECTION('',(0.,0.,-1.));
#3610=DIRECTION('',(0.,1.,0.));
#3620=AXIS2_PLACEMENT_3D('',#3590,#3600,#3610);
#3630=CYLINDRICAL_SURFACE('',#3620,1.75);
#3640=CARTESIAN_POINT('',(51.312048,48.575278,70.6252665113144));
#3650=DIRECTION('',(0.,0.,-1.));
#3660=VECTOR('',#3650,1.);
#3670=LINE('',#3640,#3660);
#3680=EDGE_CURVE('',#2610,#3110,#3670,.T.);
#3690=ORIENTED_EDGE('',*,*,#3680,.F.);
#3700=ORIENTED_EDGE('',*,*,#3120,.T.);
#3710=ORIENTED_EDGE('',*,*,#3180,.T.);
#3720=CARTESIAN_POINT('',(51.312048,45.075278,70.6252665113144));
#3730=DIRECTION('',(0.,0.,-1.));
#3740=VECTOR('',#3730,1.);
#3750=LINE('',#3720,#3740);
#3760=EDGE_CURVE('',#2500,#3150,#3750,.T.);
#3770=ORIENTED_EDGE('',*,*,#3760,.T.);
#3780=EDGE_CURVE('',#2610,#2500,#2590,.T.);
#3790=ORIENTED_EDGE('',*,*,#3780,.T.);
#3800=EDGE_LOOP('',(#3790,#3770,#3710,#3700,#3690));
#3810=FACE_OUTER_BOUND('',#3800,.T.);
#3820=ADVANCED_FACE('',(#3810),#3630,.F.);
#3830=CARTESIAN_POINT('',(51.312048,46.825278,56.4361840788433));
#3840=DIRECTION('',(0.,0.,1.));
#3850=DIRECTION('',(0.,-1.,0.));
#3860=AXIS2_PLACEMENT_3D('',#3830,#3840,#3850);
#3870=CYLINDRICAL_SURFACE('',#3860,2.00000000000011);
#3880=CARTESIAN_POINT('',(51.312048,48.8252780000001,56.4361840788433));
#3890=DIRECTION('',(0.,0.,1.));
#3900=VECTOR('',#3890,1.);
#3910=LINE('',#3880,#3900);
#3920=EDGE_CURVE('',#3420,#1830,#3910,.T.);
#3930=ORIENTED_EDGE('',*,*,#3920,.F.);
#3940=ORIENTED_EDGE('',*,*,#2010,.F.);
#3950=CARTESIAN_POINT('',(51.312048,44.8252779999999,56.4361840788433));
#3960=DIRECTION('',(0.,0.,1.));
#3970=VECTOR('',#3960,1.);
#3980=LINE('',#3950,#3970);
#3990=EDGE_CURVE('',#3330,#1930,#3980,.T.);
#4000=ORIENTED_EDGE('',*,*,#3990,.T.);
#4010=EDGE_CURVE('',#3420,#3330,#3400,.T.);
#4020=ORIENTED_EDGE('',*,*,#4010,.T.);
#4030=EDGE_LOOP('',(#4020,#4000,#3940,#3930));
#4040=FACE_OUTER_BOUND('',#4030,.T.);
#4050=ADVANCED_FACE('',(#4040),#3870,.T.);
#4060=CARTESIAN_POINT('',(51.312048,46.825278,66.4397374694366));
#4070=DIRECTION('',(0.,0.,1.));
#4080=DIRECTION('',(0.,-1.,0.));
#4090=AXIS2_PLACEMENT_3D('',#4060,#4070,#4080);
#4100=CYLINDRICAL_SURFACE('',#4090,3.00000000000006);
#4110=ORIENTED_EDGE('',*,*,#1860,.T.);
#4120=ORIENTED_EDGE('',*,*,#1610,.F.);
#4130=EDGE_CURVE('',#1280,#1180,#1350,.T.);
#4140=ORIENTED_EDGE('',*,*,#4130,.F.);
#4150=ORIENTED_EDGE('',*,*,#1520,.T.);
#4160=EDGE_LOOP('',(#4150,#4140,#4120,#4110));
#4170=FACE_OUTER_BOUND('',#4160,.T.);
#4180=ADVANCED_FACE('',(#4170),#4100,.T.);
#4190=CARTESIAN_POINT('',(51.312048,46.825278,74.4284127386261));
#4200=DIRECTION('',(0.,0.,1.));
#4210=DIRECTION('',(0.,-1.,0.));
#4220=AXIS2_PLACEMENT_3D('',#4190,#4200,#4210);
#4230=CONICAL_SURFACE('',#4220,3.00000000000006,1.04719755119669);
#4240=ORIENTED_EDGE('',*,*,#540,.T.);
#4250=EDGE_CURVE('',#630,#530,#700,.T.);
#4260=ORIENTED_EDGE('',*,*,#4250,.T.);
#4270=ORIENTED_EDGE('',*,*,#640,.F.);
#4280=ORIENTED_EDGE('',*,*,#380,.F.);
#4290=EDGE_LOOP('',(#4280,#4270,#4260,#4240));
#4300=FACE_OUTER_BOUND('',#4290,.T.);
#4310=ADVANCED_FACE('',(#4300),#4230,.T.);
#4320=CARTESIAN_POINT('',(51.312048,46.825278,76.1397374694365));
#4330=DIRECTION('',(0.,0.,1.));
#4340=DIRECTION('',(0.,-1.,0.));
#4350=AXIS2_PLACEMENT_3D('',#4320,#4330,#4340);
#4360=CONICAL_SURFACE('',#4350,2.25000000000005,0.523598775598343);
#4370=ORIENTED_EDGE('',*,*,#2530,.F.);
#4380=ORIENTED_EDGE('',*,*,#2870,.T.);
#4390=ORIENTED_EDGE('',*,*,#2700,.T.);
#4400=ORIENTED_EDGE('',*,*,#3780,.F.);
#4410=EDGE_LOOP('',(#4400,#4390,#4380,#4370));
#4420=FACE_OUTER_BOUND('',#4410,.T.);
#4430=ADVANCED_FACE('',(#4420),#4360,.F.);
#4440=CARTESIAN_POINT('',(51.312048,46.825278,71.1397374694365));
#4450=DIRECTION('',(0.,0.,1.));
#4460=DIRECTION('',(0.,-1.,0.));
#4470=AXIS2_PLACEMENT_3D('',#4440,#4450,#4460);
#4480=CYLINDRICAL_SURFACE('',#4470,2.5);
#4490=ORIENTED_EDGE('',*,*,#4250,.F.);
#4500=ORIENTED_EDGE('',*,*,#870,.T.);
#4510=ORIENTED_EDGE('',*,*,#1210,.F.);
#4520=ORIENTED_EDGE('',*,*,#960,.F.);
#4530=EDGE_LOOP('',(#4520,#4510,#4500,#4490));
#4540=FACE_OUTER_BOUND('',#4530,.T.);
#4550=ADVANCED_FACE('',(#4540),#4480,.T.);
#4560=EDGE_CURVE('',#1930,#1830,#2000,.T.);
#4570=ORIENTED_EDGE('',*,*,#4560,.F.);
#4580=ORIENTED_EDGE('',*,*,#3920,.T.);
#4590=ORIENTED_EDGE('',*,*,#3430,.T.);
#4600=ORIENTED_EDGE('',*,*,#3990,.F.);
#4610=EDGE_LOOP('',(#4600,#4590,#4580,#4570));
#4620=FACE_OUTER_BOUND('',#4610,.T.);
#4630=ADVANCED_FACE('',(#4620),#3270,.T.);
#4640=CARTESIAN_POINT('',(51.312048,46.825278,65.7397374694365));
#4650=DIRECTION('',(0.,0.,1.));
#4660=DIRECTION('',(0.,-1.,0.));
#4670=AXIS2_PLACEMENT_3D('',#4640,#4650,#4660);
#4680=CONICAL_SURFACE('',#4670,3.00000000000006,0.785398163397457);
#4690=ORIENTED_EDGE('',*,*,#1840,.T.);
#4700=ORIENTED_EDGE('',*,*,#4560,.T.);
#4710=ORIENTED_EDGE('',*,*,#1940,.F.);
#4720=ORIENTED_EDGE('',*,*,#1680,.F.);
#4730=EDGE_LOOP('',(#4720,#4710,#4700,#4690));
#4740=FACE_OUTER_BOUND('',#4730,.T.);
#4750=ADVANCED_FACE('',(#4740),#4680,.T.);
#4760=CARTESIAN_POINT('',(51.312048,46.825278,67.6397374694365));
#4770=DIRECTION('',(0.,0.,-1.));
#4780=DIRECTION('',(0.,1.,0.));
#4790=AXIS2_PLACEMENT_3D('',#4760,#4770,#4780);
#4800=CONICAL_SURFACE('',#4790,3.00000000000006,0.785398163397448);
#4810=ORIENTED_EDGE('',*,*,#1190,.F.);
#4820=ORIENTED_EDGE('',*,*,#4130,.T.);
#4830=ORIENTED_EDGE('',*,*,#1290,.T.);
#4840=ORIENTED_EDGE('',*,*,#1030,.T.);
#4850=EDGE_LOOP('',(#4840,#4830,#4820,#4810));
#4860=FACE_OUTER_BOUND('',#4850,.T.);
#4870=ADVANCED_FACE('',(#4860),#4800,.T.);
#4880=CARTESIAN_POINT('',(51.312048,46.825278,70.6252665113144));
#4890=DIRECTION('',(0.,0.,-1.));
#4900=DIRECTION('',(0.,1.,0.));
#4910=AXIS2_PLACEMENT_3D('',#4880,#4890,#4900);
#4920=CYLINDRICAL_SURFACE('',#4910,1.75);
#4930=ORIENTED_EDGE('',*,*,#2620,.T.);
#4940=ORIENTED_EDGE('',*,*,#3760,.F.);
#4950=ORIENTED_EDGE('',*,*,#3160,.T.);
#4960=ORIENTED_EDGE('',*,*,#3680,.T.);
#4970=EDGE_LOOP('',(#4960,#4950,#4940,#4930));
#4980=FACE_OUTER_BOUND('',#4970,.T.);
#4990=ADVANCED_FACE('',(#4980),#4920,.F.);
#5000=CARTESIAN_POINT('',(51.312048,46.825278,75.4284126040313));
#5010=DIRECTION('',(0.,0.,1.));
#5020=DIRECTION('',(0.,-1.,0.));
#5030=AXIS2_PLACEMENT_3D('',#5000,#5010,#5020);
#5040=CYLINDRICAL_SURFACE('',#5030,3.00000000000006);
#5050=ORIENTED_EDGE('',*,*,#560,.T.);
#5060=ORIENTED_EDGE('',*,*,#310,.F.);
#5070=ORIENTED_EDGE('',*,*,#2920,.F.);
#5080=ORIENTED_EDGE('',*,*,#140,.T.);
#5090=EDGE_LOOP('',(#5080,#5070,#5060,#5050));
#5100=FACE_OUTER_BOUND('',#5090,.T.);
#5110=ADVANCED_FACE('',(#5100),#5040,.T.);
#5120=ORIENTED_EDGE('',*,*,#3340,.T.);
#5130=ORIENTED_EDGE('',*,*,#2330,.T.);
#5140=EDGE_CURVE('',#3500,#2230,#2300,.T.);
#5150=ORIENTED_EDGE('',*,*,#5140,.T.);
#5160=ORIENTED_EDGE('',*,*,#3510,.F.);
#5170=ORIENTED_EDGE('',*,*,#4010,.F.);
#5180=EDGE_LOOP('',(#5170,#5160,#5150,#5130,#5120));
#5190=FACE_OUTER_BOUND('',#5180,.T.);
#5200=ADVANCED_FACE('',(#5190),#3870,.T.);
#5210=CARTESIAN_POINT('',(51.312048,46.825278,49.1397374694366));
#5220=DIRECTION('',(0.,0.,-1.));
#5230=DIRECTION('',(-1.,0.,0.));
#5240=AXIS2_PLACEMENT_3D('',#5210,#5220,#5230);
#5250=SPHERICAL_SURFACE('',#5240,2.);
#5260=ORIENTED_EDGE('',*,*,#3530,.F.);
#5270=ORIENTED_EDGE('',*,*,#5140,.F.);
#5280=ORIENTED_EDGE('',*,*,#2240,.T.);
#5290=ORIENTED_EDGE('',*,*,#2200,.T.);
#5300=EDGE_LOOP('',(#5290,#5280,#5270,#5260));
#5310=FACE_OUTER_BOUND('',#5300,.T.);
#5320=ADVANCED_FACE('',(#5310),#5250,.T.);
#5330=CLOSED_SHELL('',(#420,#750,#1070,#1400,#1720,#2050,#2390,#2810,
#2970,#3220,#3580,#3820,#4050,#4180,#4310,#4430,#4550,#4630,#4750,#4870,
#4990,#5110,#5200,#5320));
#5340=MANIFOLD_SOLID_BREP('',#5330);
#5350=CARTESIAN_POINT('',(0.,0.,0.));
#5360=DIRECTION('',(0.,0.,1.));
#5370=DIRECTION('',(1.,0.,0.));
#5380=AXIS2_PLACEMENT_3D('',#5350,#5360,#5370);
#5390=APPLICATION_CONTEXT(' ');
#5400=APPLICATION_PROTOCOL_DEFINITION(' ','automotive_design',1998,#5390
);
#5410=PRODUCT_CONTEXT('',#5390,'mechanical');
#5420=PRODUCT_DEFINITION_CONTEXT('part definition',#5390,'design');
#5430=PRODUCT('RXM2D_6-0','RXM2D_6-0','',(#5410));
#5440=PRODUCT_RELATED_PRODUCT_CATEGORY('part',' ',(#5430));
#5450=PRODUCT_DEFINITION_FORMATION_WITH_SPECIFIED_SOURCE('','',#5430,
.BOUGHT.);
#5460=PRODUCT_DEFINITION('',' ',#5450,#5420);
#5470=PRODUCT_DEFINITION_SHAPE('','',#5460);
#5480=DIMENSIONAL_EXPONENTS(1.,0.,0.,0.,0.,0.,0.);
#5490=DIMENSIONAL_EXPONENTS(0.,0.,0.,0.,0.,0.,0.);
#5500=DIMENSIONAL_EXPONENTS(0.,0.,0.,0.,0.,0.,0.);
#5510=(LENGTH_UNIT() NAMED_UNIT(*) SI_UNIT(.MILLI.,.METRE.));
#5520=(NAMED_UNIT(*) PLANE_ANGLE_UNIT() SI_UNIT($,.RADIAN.));
#5530=(NAMED_UNIT(*) SI_UNIT($,.STERADIAN.) SOLID_ANGLE_UNIT());
#5540=(GEOMETRIC_REPRESENTATION_CONTEXT(3) 
GLOBAL_UNCERTAINTY_ASSIGNED_CONTEXT((#5550)) 
GLOBAL_UNIT_ASSIGNED_CONTEXT((#5510,#5520,#5530)) REPRESENTATION_CONTEXT
('',''));
#5550=UNCERTAINTY_MEASURE_WITH_UNIT(LENGTH_MEASURE(1.E-6),#5510,
'distance_accuracy_value','maximum gap value');
#5560=ADVANCED_BREP_SHAPE_REPRESENTATION('',(#5380,#5340),#5540);
#5570=SHAPE_DEFINITION_REPRESENTATION(#5470,#5560);
#5580=COLOUR_RGB('',1.,0.784313797950745,0.);
#5590=FILL_AREA_STYLE_COLOUR('',#5580);
#5600=FILL_AREA_STYLE('',(#5590));
#5610=SURFACE_STYLE_FILL_AREA(#5600);
#5620=SURFACE_SIDE_STYLE('',(#5610));
#5630=SURFACE_STYLE_USAGE(.BOTH.,#5620);
#5640=PRESENTATION_STYLE_ASSIGNMENT((#5630));
#5650=STYLED_ITEM('',(#5640),#5340);
#5660=DRAUGHTING_MODEL('',(#5650),#5540);
#5670=CARTESIAN_POINT('',(-51.0852250000001,46.9797929999999,
76.1397374694365));
#5680=DIRECTION('',(0.,0.,-1.));
#5690=DIRECTION('',(1.,0.,0.));
#5700=AXIS2_PLACEMENT_3D('',#5670,#5680,#5690);
#5710=ITEM_DEFINED_TRANSFORMATION('RXM2D_6-0','',#5380,#5700);
#5720=APPLICATION_CONTEXT(' ');
#5730=APPLICATION_PROTOCOL_DEFINITION(' ','automotive_design',1998,#5720
);
#5740=PRODUCT_CONTEXT('',#5720,'mechanical');
#5750=PRODUCT_DEFINITION_CONTEXT('part definition',#5720,'design');
#5760=PRODUCT('RXM2D_6-0','RXM2D_6-0','',(#5740));
#5770=PRODUCT_RELATED_PRODUCT_CATEGORY('part',' ',(#5760));
#5780=PRODUCT_DEFINITION_FORMATION_WITH_SPECIFIED_SOURCE('','',#5760,
.BOUGHT.);
#5790=PRODUCT_DEFINITION('',' ',#5780,#5750);
#5800=PRODUCT_DEFINITION_SHAPE('','',#5790);
#5810=DIMENSIONAL_EXPONENTS(1.,0.,0.,0.,0.,0.,0.);
#5820=DIMENSIONAL_EXPONENTS(0.,0.,0.,0.,0.,0.,0.);
#5830=DIMENSIONAL_EXPONENTS(0.,0.,0.,0.,0.,0.,0.);
#5840=(LENGTH_UNIT() NAMED_UNIT(*) SI_UNIT(.MILLI.,.METRE.));
#5850=(NAMED_UNIT(*) PLANE_ANGLE_UNIT() SI_UNIT($,.RADIAN.));
#5860=(NAMED_UNIT(*) SI_UNIT($,.STERADIAN.) SOLID_ANGLE_UNIT());
#5870=(GEOMETRIC_REPRESENTATION_CONTEXT(3) 
GLOBAL_UNCERTAINTY_ASSIGNED_CONTEXT((#5880)) 
GLOBAL_UNIT_ASSIGNED_CONTEXT((#5840,#5850,#5860)) REPRESENTATION_CONTEXT
('',''));
#5880=UNCERTAINTY_MEASURE_WITH_UNIT(LENGTH_MEASURE(1.E-6),#5840,
'distance_accuracy_value','maximum gap value');
#5890=SHAPE_REPRESENTATION('',(#5380,#5700),#5870);
#5900=SHAPE_DEFINITION_REPRESENTATION(#5800,#5890);
#5910=(REPRESENTATION_RELATIONSHIP('','',#5560,#5890) 
REPRESENTATION_RELATIONSHIP_WITH_TRANSFORMATION(#5710) 
SHAPE_REPRESENTATION_RELATIONSHIP());
#5920=NEXT_ASSEMBLY_USAGE_OCCURRENCE('1','','RXM2D_6-0',#5790,#5460,'');
#5930=PRODUCT_DEFINITION_SHAPE('','',#5920);
#5940=CONTEXT_DEPENDENT_SHAPE_REPRESENTATION(#5910,#5930);
ENDSEC;
END-ISO-10303-21;
